Taby, chwyty, nuty

Wszystko i nic, czyli tzw."wolność słowa"

Moderatorzy: Piotrek, Radek

Gość

Postautor: Gość » ndz mar 09, 2008 12:55 pm

Kikan dobry pomysl. Zebrac wszystkie chwyty i tabki :D Tylko jeszcze malo jest Jackowych i Mackowych. Trzeba opracowac troche np. Alex czy Zwyczajny dzien albo Slonczeny dzionek w Pewli wielkiej czy Mackowe Dzien swistaka, 66 czy nawet Jestes nie dla mnie :D Tylko nie ma wiekszosci solowek do utworow ale same zagrywki czy chwyty by wystarczyly
Awatar użytkownika
kikan
Posty: 787
Rejestracja: śr sty 18, 2006 8:52 pm
Lokalizacja: Przedecz

Postautor: kikan » ndz mar 09, 2008 2:02 pm

No racja. Solówki są dosyć trudne no i często grają inaczej, ale przecież można edytować jak coś i dodawać nowe zagrywki czy solówki ;)
"Nothingman... Isn't it something...?"
Awatar użytkownika
idonina
Posty: 149
Rejestracja: czw maja 31, 2007 3:25 pm
Lokalizacja: Wałcz

Postautor: idonina » pt mar 14, 2008 1:39 pm

Czy ma ktoś może chwyty do lunatyków?
Gość

Postautor: Gość » pt mar 14, 2008 1:41 pm

ale wersje Jackowa czy Ryskowa?
Gość

Postautor: Gość » pt mar 14, 2008 1:56 pm

wersja ,,Jackowa" :) :


Wstęp:
h
Zwrotka:
h fis e fis
ref:
F C B

a ,,Ryśkowej" jakoś nie znam;]
Awatar użytkownika
idonina
Posty: 149
Rejestracja: czw maja 31, 2007 3:25 pm
Lokalizacja: Wałcz

Postautor: idonina » pt mar 14, 2008 1:56 pm

Ryśkowa
Gość

Postautor: Gość » pt mar 14, 2008 1:57 pm

refren zly
D, A, G

tamten F, C, B jest chyba w oryginale

Wstęp:

e---------------------------------------------------------|
B---------------------------------------------------------|
G---------------7-7-5-----------------------------------|
D-----------------------7-5--------------------5/7--5-----|
A--5--5--0-------------------7--------------------------7--|
E----------------------------------5-5-0-5---------------|

e---------------------------------------------------------|
B---------------------------------------------------------|
G-------------------------------------3----------5--------|
D----------------5-5-----------3/5-----5--5/7----7------|
A---------5-5---------------------------------------------|
E--3-3----------------------------------------------------|

zwr:
d, a
g, a

ref:
F, C, B,
C, B
Gość

Postautor: Gość » pt mar 14, 2008 2:11 pm

a no może :D podali mi F C B i grałem F C B ale dzięki :D
Gość

Postautor: Gość » pt mar 14, 2008 2:12 pm

to wystarczylo sobie wlaczyc W operze albo List od R i razem z tym grac. Albo ogladnac jakis koncert na ytb za czasow Jacka albo siegnac wlasnorecznie po tabki
tomkez
Posty: 40
Rejestracja: pt mar 14, 2008 7:38 pm
Lokalizacja: Gdzieś tam

Postautor: tomkez » pt mar 14, 2008 8:27 pm

tak do popróbowania moja wersja wstępu śmiech czy łzy

Główny motyw:
|--2-0-5-------0---------------0--------|
|---------3------3---------------5-------|
|------------------0---------------0-----| kilka razy
|--0-0-0---------------------0----------|
|---------1--1-------1-1\3-------------|
|----------------------------------------|

|--3-2------------------|
|------3--------5-3-----|
|--------2--------------| zakończenie
|-----------------------|
|-----------5-4---------|
|-----------------------|

C, G, D - coś można pokombinować z tymi akordami dalej ;-)
Gość

Postautor: Gość » pt mar 14, 2008 8:35 pm

troche koncowka zla i troche mi to intro nie pasi ale w miare brzmi powiem. W koncowce wiecej dzwiekow jest grane

Spacer z Agnieszka
GITARA 1 - Podkład
==================


E|----------0---------------0-----------------1-------------------0------|
H|------------2---------------3------------3----3-------------------2----|
G|------2-------2-------2------2--------2---------2---------2--------2---|
D|----2-----------2---2----------2---0--------------0-----2-----------2--|
A|--0----------------0-----------------------------------0---------------|
E|-----------------------------------------------------------------------|


E|----------0---------------0-----------------1------------------0-------|
H|------------2---------------3------------3----3----------3-----0-------|
G|------2-------2-------2------2--------2---------2--------2-----1-------|
D|----2-----------2---2----------2---0--------------0------3-----2-------|
A|--0----------------0-------------------------------------2-----2-------|
E|-----------------------------------------------------------------------|

(0:16sek.)
E|--0---0-----0-----0------0--0-0--0---0-0-0-0--0--0-0--0----------------|
H|--2---3-----------2------3--0-0--2---3-3-3-2--2--3-3--0----------------|
G|--2---2-----------2------2--1-1--2---2-2-2-2--2--2-2--1----------------|
D|--2---3-----------2------3--2-2--2---3-3-3-3--2--3-3--2----------------|
A|--0---2--3--------0------2--2-2--0---2-2-2-2--0--2-2--2----------------|
E|-----------------------------------------------------------------------|

(0:34 sek.)
E|---2----0----5-5---5-5----7-7-7-7----0---------------------------------|
H|---2----0----7-7---5-5----7-7-7-7----0---------------------------------|
G|---2----1----7-7---6-6----7-7-7-7----1---------------------------------|
D|---4----2----7-7---7-7----9-9-9-9----2---------X2----------------------|
A|---4----2----5-5---7-7----9-9-9-9----2---------------------------------|
E|---2---------5-5---5-5----7-7-7-7--------------------------------------|

(0:50 sek)
E|----------0---------------0----------------0--------0-0---0-0---0-0---0-0---0---0-|
H|------------2---------------3----------------2------0-0---3-3---2-2---3-3---0---2-|
G|------2-------2-------2------2---------2------2-----1-1---2-2---2-2---2-2---1---2-|
D|----2-----------2---2----------2-----2----------2---2-2---3-3---2-2---3-3---2---2-|
A|--0----------------0----------------0---------------2-2---2-2---0-0---2-2---2---0-|
E|----------------------------------------------------------------------------------|

(1:06)
E|-0-0--0-0--0-0---0-0--0-0-0--0---0-0-0--|
H|-2-2--3-3--2-2---2-2--3-3-0--2---3-3-0--|
G|-2-2--2-2--2-2---2-2--2-2-1--2---2-2-1--|
D|-2-2--3-3--2-2---2-2--3-3-2--2---3-3-2--|
A|-0-0--2-2--0-0---0-0--2-2-2--0---2-2-2--|
E|----------------------------------------|

(1:17 sek)
E|---2----0----5-5---5-5----7-7-7-7----0-------------|
H|---2----0----7-7---5-5----7-7-7-7----0-------------|
G|---2----1----7-7---6-6----7-7-7-7----1-------------|
D|---4----2----7-7---7-7----9-9-9-9----2---------X2--|
A|---4----2----5-5---7-7----9-9-9-9----2-------------|
E|---2---------5-5---5-5----7-7-7-7------------------|

(1:34 sek)
E|----------0----------------0--------------1------------0----------0----0----0--|
H|------------2----------------3----------3--3------------2---------3----2----0--|
G|------2-------2-------2--------2------2-----2------2-----2--------2----2----1--|
D|----2-----------2---2------------2--0-------------2--------2------3----2----2--|
A|--0----------------0-----------------------------0----------------2----0----2--|
E|-------------------------------------------------------------------------------|

(1:50 sek)
E|----------0-----------------0-----------------0----------------------------0---|
H|------------2-----------------3------------------2-----------------------2-----|
G|------2-------2--------2--------2----------2------2--------------------2-------|
D|----2-----------2----2------------2------2----------2----------------2---------|
A|--0----------------0-------------------0----------------------------0----------|
E|-------------------------------------------------------------------------------|




GITARA 2 - Solo
===============

0:01 0:04
E|----------------|-------------------------|
B|----------------|-----------12^13---------|
G|--6--7--7/9-7~--|--9^10--14--------10-9~--|
D|----------------|-------------------------|
A|----------------|-------------------------|
E|----------------|-------------------------|

0:07
E|-----------------------------------------------|
B|-------10-12-12/14-12--10-12/14-12--10-12------|
G|--9/10-------------------------------------11--|
D|-----------------------------------------------|
A|-----------------------------------------------|
E|-----------------------------------------------|

0:12 0:17
E|----------------------------------------|---------------------------|
B|--------12-12--12-12--------------------|---------------------------|
G|--8/10--10-10--10-12---7/6--4-7p6\4-----|---------------------------|
D|-------------------------------------7--|--7h11--11/14--12--14--11--|
A|----------------------------------------|---------------------------|
E|----------------------------------------|---------------------------|

0:21 0:24
E|---------------------|------------------------------|
B|---------------------|------------------------------|
G|---------------------|----7-6------13-13--11-13--9--|
D|--7-9-9/11--9-11--7~-|--7-----9/14-14-14--12-14--11-|
A|---------------------|------------------------------|
E|---------------------|------------------------------|


0:28 0:34
E|------------------------------------|----------------------|
B|------12/14-12--10--12---10p9-------|--10^--9-------10-----|
G|--7/9-------------------------11-9--|---------9-11-----9~--|
D|------------------------------------|----------------------|
A|------------------------------------|----------------------|
E|------------------------------------|----------------------|

0:37 0:41
E|------------------------|---------------------------------------------------------|
B|------------------------|----------10^--12--9--5--7---9/12-10--10-14p12-14p12-15~-|
G|--7-6-7--7h9p7\6-4-6-4--|--9-11-13------------------------------------------------|
D|------------------------|---------------------------------------------------------|
A|------------------------|---------------------------------------------------------|
E|------------------------|---------------------------------------------------------|

0:47 0:51
E|-------------------------------------|--0------0-----0-----------|
B|--14p12-14p12-10-9h10/12~--10-9-10~--|----10-9---9-7---7-5p2--5--|
G|-------------------------------------|---------------------------|
D|-------------------------------------|---------------------------|
A|-------------------------------------|---------------------------|
E|-------------------------------------|---------------------------|

0:55
E|------------------------|
B|------------------------|
G|------------------------|
D|--4/5-7-9-11-9-7--9b7~--|
A|------------------------|
E|------------------------|

0:58 1:05
E|----5-9-10-12~---10p9--7~-------------|--0-----------------------------|
B|---------------------------10p9--10~--|----10-12-12/14~-14-12-14--10~--|
G|--9-----------------------------------|--------------------------------|
D|--------------------------------------|--------------------------------|
A|--------------------------------------|--------------------------------|
E|--------------------------------------|--------------------------------|

1:08 1:13 1:15
E|--12--14-12-------------------------------|------------------|-------------|
B|------------15/14--14h15-14-12-10--12/14--|--7/10-9/10--12~--|--10-9-7-5~--|
G|------------------------------------------|------------------|-------------|
D|------------------------------------------|------------------|-------------|
A|------------------------------------------|------------------|-------------|
E|------------------------------------------|------------------|-------------|

1:17
E|--------------------------5h7-9--12-10-9-------------------------|
B|--5-7-9-10--12--9~--5--7-----------------12^-10~---9h10-9--7--5--|
G|-----------------------------------------------------------------|
D|-----------------------------------------------------------------|
A|-----------------------------------------------------------------|
E|-----------------------------------------------------------------|

1:24 1:29
E|---------------------------------------|-----------------------------------|
B|---------------------------------------|-----------------------------------|
G|--7p6-6h7-4-2--4-4/6--4-2--------2-----|--2-6p5-6p5-7--6--4--7--6--4p2-4~--|
D|---------------------------2--4-----2--|-----------------------------------|
A|---------------------------------------|-----------------------------------|
E|---------------------------------------|-----------------------------------|

1:33 1:41
E|--------------------------------------------------|------12--12~--9/10-9--7--5--|
B|--5h7--5~--2/5--5/3~------------12^13--10--12/14--|--10-------------------------|
G|-----------------------9^10--14-------------------|-----------------------------|
D|--------------------------------------------------|-----------------------------|
A|--------------------------------------------------|-----------------------------|
E|--------------------------------------------------|-----------------------------|

1:44 1:48 1:51
E|----------------------------|--------------------|----------------------|
B|--5/7-5---------------------|--------------------|----------------------|
G|--------6-4-2--4-4--4/6--4--|--------------------|--------9--7--11--9~--|
D|----------------------------|--------------------|--7-9-7---------------|
A|----------------------------|--7-9-11-11/14--12--|----------------------|
E|----------------------------|--------------------|----------------------|

1:54
E|----------------------------------|
B|-----------------------------(5)--|
G|----------------------------6-----|
D|--2--4--9-9/11~---9---9---7-------|
A|----------------------------------|
E|----------------------------------|
tomkez
Posty: 40
Rejestracja: pt mar 14, 2008 7:38 pm
Lokalizacja: Gdzieś tam

Postautor: tomkez » pt mar 14, 2008 8:42 pm

To ja złodziej

"To ja złodziej"
Intro i riff 1
E|------------------------|
H|-----------------------|
G|-----------------------|
D|-7/5-7-5-7-5-7------|
A|-7/5-7-5-7-5-7-------|
E|-5/3-5-3-5-3-5-------|

Riff 1.1
A G D D E (na power chordsach)
Riff 1.2
E|--5--3--2-2---------------|
H|--2--0--3-3---------------|
G|--2--0--2-2--1------------|
D|--2-----------2------------|
A|---------------2------------|
E|--------------------------|
A D fis E (Riff 1.1)
Pucujesz……………………………………………………..
A D fis E (Riff 1.1)
Żeby ………………………………………………………………
A D fis E (Riff 1.1)
A wystarczy ……………………………………………..
A D fis E (Riff 1.1)
Żeby …………………………………………………………..

Ref.
A G E
To ja ……………………………………………………….
D G D E
Ja …………………………………………………………………
A G E
Żuję twoją……………………………………………………
D G (riff 1)
A ………………………………………………………………………

Dalej jest tak samo tylko w drugiej zwrotce (riff 1.2) itd
Gość

Postautor: Gość » pt mar 14, 2008 8:46 pm

wybaczcie przesuniecia w Spacerze z Agnieszka :P dokladnie w tej soloweczce Jurka
w Smiech czy lzy powinno byc
|--2h3p2-----------------|
a reszte jest inna motka przynajmniej ja tam slysze troche bardziej pokombinowane zakonczenie ale intro w miare dobrze chyba ze ktos lepiej rozpisze
Ostatnio zmieniony pt mar 14, 2008 8:50 pm przez Gość, łącznie zmieniany 1 raz.
tomkez
Posty: 40
Rejestracja: pt mar 14, 2008 7:38 pm
Lokalizacja: Gdzieś tam

Postautor: tomkez » pt mar 14, 2008 8:49 pm

w śmiechach i łzach w końcówce gdzie grane są dźwięki na 5 i 4 progu trzeba to zagrać na strunie D, a nie A jak głupio podałem...to tylko szkielet..przynajmniej coś jest może ktoś resztę złapie i rozpisze...a może ktoś umie zagrać ten śliczny motyw z Ostatniego widzenia z około 03:19 wersja z wehikułu czasu'92??
Gość

Postautor: Gość » pt mar 14, 2008 8:54 pm

ja tylko do tego momentu rozkmicilem potem tylko mi sie wydaje ze tak leci
e------------------------------
h--2-2h3p2-------------------
g--2----------2----------------
d--2-------------2-------------
a--0---------------------------
e------------------------------
dalej tylko sie domyslam tzw wiem jakie chwyty ale nie moge rozkmicic pozycji
a moze ma ktos ten motyw dalszy gdzie jest grany power chordami takie przejscie miedzy a i g nie moge tez rozkmicic i prosze o przejscie w Slodkiej podczas refrenu tez jest podobna motka i w Jesionach. Bylbym bardzo wdzieczny

Wróć do „HydePark”



Kto jest online

Użytkownicy przeglądający to forum: Obecnie na forum nie ma żadnego zarejestrowanego użytkownika i 1 gość